  0
SECTION
  2
HEADER
  9
$ACADVER
  1
AC1009
  9
$INSBASE
 10
0.0
 20
0.0
 30
0.0
  9
$EXTMIN
 10
-0.0204638472032742
 20
-2.960436562073669
 30
0.0
  9
$EXTMAX
 10
148.397879109103
 20
81.562197884546407
 30
0.0
  9
$LIMMIN
 10
0.0
 20
0.0
  9
$LIMMAX
 10
270.0
 20
175.0
  9
$ORTHOMODE
 70
     1
  9
$REGENMODE
 70
     1
  9
$FILLMODE
 70
     1
  9
$QTEXTMODE
 70
     0
  9
$MIRRTEXT
 70
     0
  9
$DRAGMODE
 70
     2
  9
$LTSCALE
 40
10.0
  9
$OSMODE
 70
  3071
  9
$ATTMODE
 70
     1
  9
$TEXTSIZE
 40
0.2
  9
$TRACEWID
 40
0.05
  9
$TEXTSTYLE
  7
STANDARD
  9
$CLAYER
  8
0
  9
$CELTYPE
  6
BYLAYER
  9
$CECOLOR
 62
   256
  9
$DIMSCALE
 40
1.0
  9
$DIMASZ
 40
3.0
  9
$DIMEXO
 40
2.0
  9
$DIMDLI
 40
0.38
  9
$DIMRND
 40
0.0
  9
$DIMDLE
 40
0.0
  9
$DIMEXE
 40
2.0
  9
$DIMTP
 40
0.0
  9
$DIMTM
 40
0.0
  9
$DIMTXT
 40
3.2000000000000002
  9
$DIMCEN
 40
0.0
  9
$DIMTSZ
 40
0.0
  9
$DIMTOL
 70
     0
  9
$DIMLIM
 70
     0
  9
$DIMTIH
 70
     0
  9
$DIMTOH
 70
     0
  9
$DIMSE1
 70
     0
  9
$DIMSE2
 70
     0
  9
$DIMTAD
 70
     1
  9
$DIMZIN
 70
     0
  9
$DIMBLK
  1

  9
$DIMASO
 70
     1
  9
$DIMSHO
 70
     0
  9
$DIMPOST
  1

  9
$DIMAPOST
  1

  9
$DIMALT
 70
     0
  9
$DIMALTD
 70
     2
  9
$DIMALTF
 40
25.399999999999999
  9
$DIMLFAC
 40
1.0
  9
$DIMTOFL
 70
     1
  9
$DIMTVP
 40
1.6000000000000001
  9
$DIMTIX
 70
     1
  9
$DIMSOXD
 70
     0
  9
$DIMSAH
 70
     0
  9
$DIMBLK1
  1

  9
$DIMBLK2
  1

  9
$DIMSTYLE
  2
STANDARD
  9
$DIMCLRD
 70
     0
  9
$DIMCLRE
 70
     0
  9
$DIMCLRT
 70
     0
  9
$DIMTFAC
 40
1.0
  9
$DIMGAP
 40
0.09
  9
$LUNITS
 70
     2
  9
$LUPREC
 70
     4
  9
$SKETCHINC
 40
0.1
  9
$FILLETRAD
 40
0.0
  9
$AUNITS
 70
     1
  9
$AUPREC
 70
     4
  9
$MENU
  1
E:\r13\win\SUPPORT\ACAD
  9
$ELEVATION
 40
0.0
  9
$PELEVATION
 40
0.0
  9
$THICKNESS
 40
0.0
  9
$LIMCHECK
 70
     0
  9
$BLIPMODE
 70
     0
  9
$CHAMFERA
 40
0.0
  9
$CHAMFERB
 40
0.0
  9
$SKPOLY
 70
     0
  9
$TDCREATE
 40
2449839.7803587969
  9
$TDUPDATE
 40
2456597.5497865742
  9
$TDINDWG
 40
0.0288933912
  9
$TDUSRTIMER
 40
0.0288933912
  9
$USRTIMER
 70
     1
  9
$ANGBASE
 50
0.0
  9
$ANGDIR
 70
     0
  9
$PDMODE
 70
     0
  9
$PDSIZE
 40
0.0
  9
$PLINEWID
 40
0.0
  9
$COORDS
 70
     1
  9
$SPLFRAME
 70
     0
  9
$SPLINETYPE
 70
     6
  9
$SPLINESEGS
 70
     8
  9
$ATTDIA
 70
     0
  9
$ATTREQ
 70
     1
  9
$HANDLING
 70
     1
  9
$HANDSEED
  5
A63
  9
$SURFTAB1
 70
     6
  9
$SURFTAB2
 70
     6
  9
$SURFTYPE
 70
     6
  9
$SURFU
 70
     6
  9
$SURFV
 70
     6
  9
$UCSNAME
  2

  9
$UCSORG
 10
0.0
 20
0.0
 30
0.0
  9
$UCSXDIR
 10
1.0
 20
0.0
 30
0.0
  9
$UCSYDIR
 10
0.0
 20
1.0
 30
0.0
  9
$PUCSNAME
  2

  9
$PUCSORG
 10
0.0
 20
0.0
 30
0.0
  9
$PUCSXDIR
 10
1.0
 20
0.0
 30
0.0
  9
$PUCSYDIR
 10
0.0
 20
1.0
 30
0.0
  9
$USERI1
 70
     0
  9
$USERI2
 70
     1
  9
$USERI3
 70
     1
  9
$USERI4
 70
     0
  9
$USERI5
 70
     0
  9
$USERR1
 40
0.0
  9
$USERR2
 40
0.0
  9
$USERR3
 40
0.0
  9
$USERR4
 40
0.0
  9
$USERR5
 40
0.0
  9
$WORLDVIEW
 70
     1
  9
$SHADEDGE
 70
     3
  9
$SHADEDIF
 70
    70
  9
$TILEMODE
 70
     1
  9
$MAXACTVP
 70
    16
  9
$PLIMCHECK
 70
     0
  9
$PEXTMIN
 10
1.0000000000000000E+020
 20
1.0000000000000000E+020
 30
1.0000000000000000E+020
  9
$PEXTMAX
 10
-1.0000000000000000E+020
 20
-1.0000000000000000E+020
 30
-1.0000000000000000E+020
  9
$PLIMMIN
 10
0.0
 20
0.0
  9
$PLIMMAX
 10
12.0
 20
9.0
  9
$UNITMODE
 70
     0
  9
$VISRETAIN
 70
     0
  9
$PLINEGEN
 70
     0
  9
$PSLTSCALE
 70
     0
  0
ENDSEC
  0
SECTION
  2
TABLES
  0
TABLE
  2
VPORT
 70
     1
  0
VPORT
  2
*ACTIVE
 70
     0
 10
0.0
 20
0.0
 11
1.0
 21
1.0
 12
139.91691953985361
 22
86.015320026217182
 13
0.0
 23
0.0
 14
10.0
 24
10.0
 15
10.0
 25
10.0
 16
0.0
 26
0.0
 36
1.0
 17
0.0
 27
0.0
 37
0.0
 40
179.56549770494291
 41
1.831871345029239
 42
50.0
 43
0.0
 44
0.0
 50
0.0
 51
0.0
 71
     0
 72
   500
 73
     1
 74
     0
 75
     0
 76
     0
 77
     0
 78
     2
  0
ENDTAB
  0
TABLE
  2
LTYPE
 70
     3
  0
LTYPE
  2
CONTINUOUS
 70
     0
  3
Solid Line
 72
    65
 73
     0
 40
0.0
  0
LTYPE
  2
CENTER
 70
     0
  3
____ _ ____ _ ____ _ ____ _ ____ _ ____ _ ____
 72
    65
 73
     4
 40
2.0
 49
1.25
 49
-0.25
 49
0.25
 49
-0.25
  0
LTYPE
  2
PHANTOM2
 70
     0
  3
___ _ _ ___ _ _ ___ _ _ ___ _ _
 72
    65
 73
     6
 40
1.25
 49
0.625
 49
-0.125
 49
0.125
 49
-0.125
 49
0.125
 49
-0.125
  0
ENDTAB
  0
TABLE
  2
LAYER
 70
     4
  0
LAYER
  2
0
 70
     0
 62
     7
  6
CONTINUOUS
  0
LAYER
  2
1
 70
     0
 62
     1
  6
CENTER
  0
LAYER
  2
3
 70
     0
 62
     3
  6
CONTINUOUS
  0
LAYER
  2
ITTEN
 70
     0
 62
     1
  6
CENTER
  0
ENDTAB
  0
TABLE
  2
STYLE
 70
     2
  0
STYLE
  2
STANDARD
 70
     0
 40
0.0
 41
1.0
 50
0.0
 71
     0
 42
0.2
  3
TXT
  4
BIGFONT
  0
STYLE
  2
STANDARD1
 70
     0
 40
0.0
 41
1.0
 50
0.0
 71
     0
 42
3.0
  3
txt
  4

  0
ENDTAB
  0
TABLE
  2
VIEW
 70
     1
  0
VIEW
  2
ALL
 70
     0
 40
179.5384664489153
 10
135.0
 20
89.769233224457665
 41
0.0
 11
0.0
 21
0.0
 31
1.0
 12
0.0
 22
0.0
 32
0.0
 42
0.0
 43
0.0
 44
0.0
 50
0.0
 71
     0
  0
ENDTAB
  0
TABLE
  2
UCS
 70
     0
  0
ENDTAB
  0
TABLE
  2
APPID
 70
    17
  0
APPID
  2
ACAD
 70
     0
  0
APPID
  2
GENIUS_GENODEF_13
 70
     0
  0
APPID
  2
GENIUS_GENOBJ-N-FIL_13
 70
     0
  0
APPID
  2
GENIUS_GENOREF_13
 70
     0
  0
APPID
  2
GENIUS_GENOBJ-N-CEN_13
 70
     0
  0
APPID
  2
GENIUS_GENCFG_13
 70
     0
  0
APPID
  2
GENIUS_GENCFG0_13
 70
     0
  0
APPID
  2
GENIUS_GENCFG1_13
 70
     0
  0
APPID
  2
GENIUS_GENCFG2_13
 70
     0
  0
APPID
  2
GENIUS_GENCFG3_13
 70
     0
  0
APPID
  2
GENIUS_GENCFG4_13
 70
     0
  0
APPID
  2
GENIUS_GEVCFG0_13
 70
     0
  0
APPID
  2
GENIUS_GENOENT_13
 70
     0
  0
APPID
  2
GENIUS_GENOBJ-N-CRS_13
 70
     0
  0
APPID
  2
GENIUS_GENOLIS_13
 70
     0
  0
APPID
  2
ACAD_MLEADERVER
 70
     0
  0
APPID
  2
ACAD_NAV_VCDISPLAY
 70
     0
  0
ENDTAB
  0
TABLE
  2
DIMSTYLE
 70
     1
  0
DIMSTYLE
  2
STANDARD
 70
     0
  3

  4

  5

  6

  7

 40
1.0
 41
0.18
 42
0.0625
 43
0.38
 44
0.18
 45
0.0
 46
0.0
 47
0.0
 48
0.0
140
0.18
141
0.09
142
0.0
143
25.399999999999999
144
1.0
145
0.0
146
1.0
147
0.09
 71
     0
 72
     0
 73
     1
 74
     1
 75
     0
 76
     0
 77
     0
 78
     0
170
     0
171
     2
172
     0
173
     0
174
     0
175
     0
176
     0
177
     0
178
     0
  0
ENDTAB
  0
ENDSEC
  0
SECTION
  2
BLOCKS
  0
BLOCK
  8
0
  2
$MODEL_SPACE
 70
     0
 10
0.0
 20
0.0
 30
0.0
  3
$MODEL_SPACE
  1

  0
ENDBLK
  5
8A9
  8
0
  0
BLOCK
 67
     1
  8
0
  2
$PAPER_SPACE
 70
     0
 10
0.0
 20
0.0
 30
0.0
  3
$PAPER_SPACE
  1

  0
ENDBLK
  5
8A7
 67
     1
  8
0
  0
BLOCK
  8
0
  2
BATU
 70
     0
 10
0.0
 20
0.0
 30
0.0
  3
BATU
  1

  0
LINE
  5
765
  8
ITTEN
 10
0.5
 20
0.0
 30
0.0
 11
-0.5
 21
0.0
 31
0.0
  0
LINE
  5
766
  8
ITTEN
 10
0.0
 20
0.5
 30
0.0
 11
0.0
 21
-0.5
 31
0.0
  0
ENDBLK
  5
76A
  8
0
  0
ENDSEC
  0
SECTION
  2
ENTITIES
  0
POINT
  5
5AB
  8
0
 10
17.451829364787699
 20
2.8898092584588531
 30
0.0
1001
GENIUS_GENODEF_13
1002
{
1000
HIER
1070
    10
1002
}
1002
{
1000
MANEDIT
1070
     0
1002
}
1002
{
1000
NOSEL
1070
     0
1002
}
1002
{
1000
BEHIND
1070
     0
1002
}
1002
{
1000
REACTOR
1002
}
1001
GENIUS_GENOBJ-N-CRS_13
1002
{
1000
OWNER
1000
GEN
1002
}
1001
GENIUS_GENOENT_13
1002
{
1000
MYREF
1005
5AB
1002
}
1002
{
1000
GRP
1005
0
1002
}
1001
GENIUS_GENOLIS_13
1002
{
1000
ENT
1005
0
1005
0
1005
0
1005
5AA
1002
}
  0
CIRCLE
  5
846
  8
0
 10
47.68595557138439
 20
70.562196884547092
 30
0.0
 40
8.0000009999993154
  0
CIRCLE
  5
847
  8
0
 10
47.68595557138439
 20
70.562196884547092
 30
0.0
 40
7.0000000000004832
  0
CIRCLE
  5
848
  8
0
 10
47.68595557138439
 20
70.562196884547092
 30
0.0
 40
5.0000000000004832
  0
LINE
  5
849
  8
1
 10
58.685956571383713
 20
70.562196884547092
 30
0.0
 11
36.685954571385082
 21
70.562196884547092
 31
0.0
  0
LINE
  5
84A
  8
1
 10
47.68595557138439
 20
81.562197884546407
 30
0.0
 11
47.68595557138439
 21
59.562195884547783
 31
0.0
  0
CIRCLE
  5
84B
  8
3
 10
47.68595557138439
 20
70.562196884547063
 30
0.0
 40
2.458499999999999
  0
CIRCLE
  5
84C
  8
0
 10
47.68595557138439
 20
70.562196884547063
 30
0.0
 40
3.0
  0
LINE
  5
84D
  8
0
 10
49.185955570163507
 20
71.428222287627136
 30
0.0
 11
49.185955570163507
 21
69.696171480058297
 31
0.0
  0
LINE
  5
84E
  8
0
 10
49.185955570161688
 20
69.696171481467104
 30
0.0
 11
47.685955570163507
 21
68.830146077682571
 31
0.0
  0
LINE
  5
84F
  8
0
 10
47.685955571384049
 20
68.830146078388566
 30
0.0
 11
46.185955571384049
 21
69.696171482172645
 31
0.0
  0
LINE
  5
850
  8
0
 10
46.185955572605501
 20
69.696171481468014
 30
0.0
 11
46.185955572605501
 21
71.428222289036853
 31
0.0
  0
LINE
  5
851
  8
0
 10
46.185955572605501
 20
71.428222287626909
 30
0.0
 11
47.685955572605501
 21
72.294247691411442
 31
0.0
  0
LINE
  5
852
  8
0
 10
47.685955571384049
 20
72.294247690705447
 30
0.0
 11
49.185955571384063
 21
71.428222286921368
 31
0.0
  0
LINE
  5
853
  8
1
 10
148.397879109103
 20
70.562196884546182
 30
0.0
 11
76.897879109102973
 21
70.562196884547575
 31
0.0
1001
GENIUS_GENODEF_13
1002
{
1000
HIER
1070
     0
1002
}
1002
{
1000
MANEDIT
1070
     0
1002
}
1002
{
1000
NOSEL
1070
     0
1002
}
1002
{
1000
BEHIND
1070
     0
1002
}
1002
{
1000
REACTOR
1002
}
1001
GENIUS_GENOBJ-N-CEN_13
1002
{
1000
OWNER
1000
GEN
1002
}
  0
ARC
  5
854
  8
0
 10
127.39787810910281
 20
90.562196884547873
 30
0.0
 40
28.000001000000069
 50
249.93666141297979
 51
306.869893553287
  0
ARC
  5
855
  8
0
 10
127.39787810910229
 20
50.562196884546339
 30
0.0
 40
28.000001000000069
 50
53.130106446711522
 51
110.06333858701871
  0
LINE
  5
856
  8
3
 10
80.284379109102986
 20
68.175696884547577
 30
0.0
 11
90.897879109102973
 21
68.175696884547577
 31
0.0
1001
GENIUS_GENOREF_13
1005
0
1005
0
  0
LINE
  5
857
  8
3
 10
80.284379109102986
 20
72.948696884547573
 30
0.0
 11
90.897879109102973
 21
72.948696884547573
 31
0.0
1001
GENIUS_GENOREF_13
1005
0
1005
0
  0
LINE
  5
858
  8
0
 10
90.897879109102973
 20
67.562196884547575
 30
0.0
 11
80.897879109102973
 21
67.562196884547575
 31
0.0
1001
GENIUS_GENOREF_13
1005
0
1005
0
  0
LINE
  5
859
  8
0
 10
90.897879109102973
 20
73.562196884547575
 30
0.0
 11
80.897879109102973
 21
73.562196884547575
 31
0.0
1001
GENIUS_GENOREF_13
1005
0
1005
0
  0
LINE
  5
85A
  8
0
 10
80.897879109102973
 20
67.562196884547575
 30
0.0
 11
80.897879109102973
 21
73.562196884547575
 31
0.0
  0
LINE
  5
85B
  8
0
 10
80.897879109102973
 20
67.562196884547575
 30
0.0
 11
79.897879109102973
 21
68.562196884547575
 31
0.0
  0
LINE
  5
85C
  8
0
 10
80.897879109102973
 20
73.562196884547575
 30
0.0
 11
79.897879109102973
 21
72.562196884547575
 31
0.0
  0
LINE
  5
85D
  8
0
 10
79.897879109102973
 20
68.562196884547575
 30
0.0
 11
79.897879109102973
 21
72.562196884547575
 31
0.0
1001
GENIUS_GENOREF_13
1005
0
1005
0
  0
LINE
  5
85E
  8
0
 10
96.397879109102973
 20
63.562196884547568
 30
0.0
 11
96.397879109102973
 21
77.562196884547575
 31
0.0
  0
LINE
  5
85F
  8
0
 10
101.397879109103
 20
63.562196884547568
 30
0.0
 11
101.397879109103
 21
77.562196884547575
 31
0.0
  0
LINE
  5
860
  8
0
 10
90.897879109102973
 20
75.562196884547575
 30
0.0
 11
90.897879109102973
 21
65.562196884547575
 31
0.0
  0
ARC
  5
861
  8
0
 10
110.4388467818459
 20
44.127422769651233
 30
0.0
 40
21.43477411489609
 50
69.936661412979831
 51
114.9476325428497
  0
LINE
  5
862
  8
0
 10
96.397879109102973
 20
63.562196884547568
 30
0.0
 11
101.397879109103
 21
63.562196884547568
 31
0.0
  0
LINE
  5
863
  8
0
 10
90.897879109102973
 20
65.562196884547575
 30
0.0
 11
96.397879109102973
 21
65.562196884547575
 31
0.0
  0
ARC
  5
864
  8
0
 10
110.43884678184649
 20
96.996970999443434
 30
0.0
 40
21.43477411489609
 50
245.05236745714879
 51
290.06333858701868
  0
LINE
  5
865
  8
0
 10
96.397879109102973
 20
77.562196884547575
 30
0.0
 11
101.397879109103
 21
77.562196884547575
 31
0.0
  0
LINE
  5
866
  8
0
 10
90.897879109102973
 20
75.562196884547575
 30
0.0
 11
96.397879109102973
 21
75.562196884547575
 31
0.0
  0
INSERT
  5
867
  8
0
  2
BATU
 10
90.897879109102973
 20
70.562196884547305
 30
0.0
 41
0.001
 42
0.001
 43
0.001
  0
ARC
  5
868
  8
0
 10
142.39787810910229
 20
70.562196884546324
 30
0.0
 40
3.0000010000006658
 50
306.86985944867041
 51
53.130117633033557
  0
TEXT
  5
9D4
  8
0
 62
     3
 10
0.0
 20
0.0
 30
0.0
 40
10.0
  1
ALG16R
  7
STANDARD1
  0
ENDSEC
  0
EOF
